I'm afraid of Americans - David Bowie

Intro:

Play Riff 1 several times with Riff 2 (3x) & Riff 3 

Riff 1:

E--------11-------------------
B---10------10-----10---------
G-8--------------8------------
D-----------------------------
A-----------------------------
E-----------------------------

Riff 2:              

D-3-1---------------1---
A-----3---3-------3-----
E-------1---1-1--1------

Riff 3: 

D-3--1------------------
A------3---3------------
E-------1---1-(1-1-1)---

F & Riff 1
Uh-uh-uh uh, uh, uh-uh uh-uh-uh
Johnny's in America
Low techs at the wheel
Uh-uh-uh uh, uh, uh-uh uh-uh-uh
Nobody needs anyone
They don't even just pretend
Uh-uh-uh uh, uh, uh-uh uh-uh-uh
Johnny's in America

Riff 2 ( F&G# in some live versions)
CHORUS (x2) 
I'm afraid of Americans
I'm afraid of the world
I'm afraid I can't help it
I'm afraid I can't

I'm afraid of Americans

Johnny's in America
  Uh-uh-uh uh, uh, uh-uh uh-uh-uh

Johnny wants a brain
Johnny wants to suck on a Coke
Johnny wants a woman
Johnny wants to think of a joke

  Uh-uh-uh uh, uh, uh-uh uh-uh-uh
Johnny's in America
  Uh-uh-uh uh, uh, uh-uh uh-uh-uh

CHORUS (x2)

I'm afraid of Americans

  Uh-uh-uh uh, uh, uh-uh uh-uh-uh

Johnny's in America
Johnny looks up at the stars
Johnny combs his hair
And Johnny wants pussy in cars

Johnny's in America, uh-uh-uh uh, uh, uh-uh uh-uh-uh
Johnny's in America, uh-uh-uh uh, uh, uh-uh uh-uh-uh

CHORUS (x2)

I'm afraid of Americans

F  D#          A#
God is an American
F
God is an American

CHORUS (x2)

Yeah, I'm afraid of Americans
I'm afraid of the words
I'm afraid I can't help it
I'm afraid I can't

I'm afraid of Americans

Johnny's an American
Johnny's an American

Johnny's an American, uh-uh-uh uh, uh, uh-uh uh-uh-uh (repeat)


-----------------------------------------
COMMENTS:

FEEOWNER CROSS THE LAND 7/5/2004 - 18:43:44
Yeah well it's Johnny wants to fuck up a joke isn't it except David didn't consider having a Lolita nymphet as a girlfriend a joke!!
----------------------------------------- ADD A COMMENT:
NAME: EMAIL: WEBPAGE: ICQ: MSN: COMMENT: