Worlds Apart - Bruce Springsteen
 

Em
  la la la la la la la la la la
         D                 Em
la la la la la la la la la la

Em						
I hold you in my arms, yeah that's when it starts
                     D                         Em
I seek faith in your kiss, and comfort in your heart

I taste the seed upon your lips, lay my tongue upon your scars
                          D                     Em
But when I look into your eyes, we stand worlds apart 

la la la la la la la la la la
         D                 Em
la la la la la la la la la la

la la la la la la la la la la
         D                 Em
la la la la la la la la la la


Where the distant oceans sing, and rise to the plain
                         D                      Em
In this dry and troubled country your beauty remains

Down from the mountain roads where the highway rolls to dark
                       D                      Em
'neath Allah's blessed rain, we remain worlds apart

la la la la la la la la la la
         D                 Em
la la la la la la la la la la

la la la la la la la la la la
         D                 Em
la la la la la la la la la la



         G      D        D              Em           G            D
e------|------|--------|--------------|------------|------------|-----------|--
B---8^7|^8-8--|-7------|-----7-8-7----|-------8-10-|-10/12---12-|-10-8-7-7--|--
G----p-|h-----|---7----|---7-------9^7|^9---9------|------------|-----------|--
D------|------|-----7--|-7----------p-|h-----------|------------|-----------|--
A------|------|--------|--------------|------------|------------|-----------|--
E------|------|--------|--------------|------------|------------|-----------|--

  D              Em              Em              Em              Em
e--------------|-0---0-0---0-0-|-0---0-0---0-0-|-0---0-0---0-0-|-0---0--0-|--
B-----7/8-7--3-|-3/5-5-53-3-3-|-3/5-5-53-3-3-|-3/5-5-53-3-3-|-3/5-5--5-|--
G---7--s-------|---------------|---------------|---------------|----------|--
D-7------------|---------------|---------------|---------------|----------|--
A--------------|---------------|---------------|---------------|----------|--
E--------------|---------------|---------------|---------------|----------|--
                                                                 
Sometimes...


				D
Sometimes the truth just ain't enough
				Em
Or it's too much in times like this
			 D			   Em
Let's throw the truth away, we'll find it in this kiss

In your skin upon my skin, in the beating of our hearts
			D			   Em
May the living let us in, before the dead tear us apart

la la la la la la la la la la
         D                 Em
la la la la la la la la la la


                        G                               D
We'll let blood build a bridge over mountains draped in stars
                                                      Em
I'll meet you on the ridge, between these worlds apart
                               G                                D
We've got this moment now in live, then it's all just dust and dark

Let love give what it gives
                             Em
Let's let love give what it gives
 



Solo by Antti Pekkanen
Alternative fingering ('though I think the above one is way better):

         G      D        D              Em           G         D
e---3^2|^3-3--|-2------|-----2-3-2----|-------3-5--|-5/7---7-|-5-3-2-2--|--
B----p-|h-----|---3----|---3-------5^3|^5---5------|---------|----------|--
G------|------|-----2--|-2----------p-|h-----------|---------|----------|--
D------|------|--------|--------------|------------|---------|----------|--
A------|------|--------|--------------|------------|---------|----------|--
E------|------|--------|--------------|------------|---------|----------|--

  D              Em              Em              Em              Em
e-----2/3-2----|---------------|---------------|---------------|---------------|--
B---3--s-----3-|-3/5-5-53-3-3-|-3/5-5-53-3-3-|-3/5-5-53-3-3-|-3/5-5-53-3-3-|--
G-2------------|---------------|---------------|---------------|---------------|--
D--------------|---------------|---------------|---------------|---------------|--
A--------------|---------------|---------------|---------------|---------------|--
E--------------|---------------|---------------|---------------|---------------|--
                                                                 
Sometimes...

-----------------------------------------
ADD A COMMENT:
NAME: EMAIL: WEBPAGE: ICQ: MSN: COMMENT: