Man's Job - Bruce Springsteen 

F                  Bb    F                 C
------------------|-----|-----------------|-----|
------------------|-----|-----------------|-----|
---2-0----2-0---2vvvvvv-|---2-0---2-0---0vvvvvv-|
-------3------3---|-----|-------3-----3---|-----|
-3----------------|-----|-3---------------|-----|
------------------|-----|-----------------|-----|

F                  Bb    F                 C
------------------|-----|-----------------|-----|
------------------|-----|-----------------|-----|
---2-0----2-0---2vvvvvv-|---2-0---2-0---0vvvvvv-|
-------3------3---|-----|-------3-----3---|-----|
-3----------------|-----|-3---------------|-----|
------------------|-----|-----------------|-----|

             Bb             F
Well you can go out with him
                  C      F
Play with all of his toys
            Bb                F
But takin' care of you darlin'
          C              F
Ain't for one of the boys
           D                     F
Oh there's somethin' in your soul
                D  Bb
That he's gonna rob
               C   Bb
And lovin' you baby 
           D      Bb
Lovin' you darlin'
           C                      F
Lovin' you woman is a man's man's job

               Bb          F
Lovin' you's a man's job baby
               C        F
Lovin' you's a man's job
               Bb         F
Lovin' you's a man's job baby
               C        F
Lovin' you's a man's job

             Bb               F
Well now his kisses may thrill
                       C       F
Those other girls that he likes
             Bb               F
But when it comes sto treatin'
        C         F
A real woman right
           D          F
Well all of his tricks
             D         Bb
No they won't be enough
                 C    Bb
'Cause lovin' you baby 
            D   Bb
Lovin' you woman
            C                        F
Lovin' you darlin' is a man's man's job

               Bb          F
Lovin' you's a man's job baby
               C        F
Lovin' you's a man's job
               Bb         F
Lovin' you's a man's job baby
               C        Bb
Lovin' you's a man's job


You're dancin' with him he's holding you tight
   D                             A            Bb
Oh, I'm standing here waitin' to catch your eye
                                          G
Your hand's on his neck as the music sways
                 A         C    A                            C         A
All my illusions slip away ----|--------|--------|----------|-0vvv----|--------|
                           ----|--------|--------|----------|-1vvv----|-1vvv---|
                           ----|-2vvv---|-3vvv---|-2vvv-0---|-0vvv----|--------|
                           ----|------0-|--------|--------3-|-2vvv--3-|------3-|
                           -3--|--------|------3-|----------|-3vvv----|--------|
                           ----|--------|--------|----------|---------|--------|

                                               D       A       D      Bb 
--------|-----------|----------|-8vvv-8<7>8-1310vvv-5/8vvv-13/22vvv-|-------|
-3vvv---|-1vvv--3-2-|-0vvv-4/8-|-------p-h----s-------s-------s------|-------|
--------|-----------|-0vvv--s--|--------------|-------|-------|------|-------|
------3-|-----------|----------|--------------|-------|-------|------|-2/3-2-|
--------|-----------|----------|--------------|-------|-------|------|--s----|
--------|-----------|----------|--------------|-------|-------|------|-------|
(2nd guitar)        |          |              |       |       |      |       |
--------|-----------|----------|--------------|-------|-------|------|-1-----|
--------|-----------|----------|--------------|-------|-------|------|-3-----|
--------|-----------|----------|--------------|-------|-------|------|-3-----|
--------|-----------|----------|--------------|-------|-------|------|-3-----|
--------|-----------|----------|--------------|-------|-------|------|-1-----|
--------|-----------|----------|--------------|-------|-------|------|-------|

C             Bb      C             Bb      C
-------------|-------|-------------|-------|-------------|
-------------|-------|-------------|-------|-------------|
-------------|-------|-------------|-------|-------------|
-------------|-2/3-2-|-------------|-2/3-2-|-------------|
-3vvv--------|--s----|-3vvv--------|--s----|-3vvv--------|
-------------|-------|-------------|-------|-------------|
             |       |             |       |             |
-1-----1-----|-1-----|-1-----1-----|-1-----|-1-----1-----|
---1-----1---|-3-----|---1-----1---|-3-----|---1-----1---|
-----3-----3-|-3-----|-----3-----3-|-3-----|-----3-----3-|
-------------|-3-----|-------------|-3-----|-------------|
-------------|-1-----|-------------|-1-----|-------------|
-------------|-------|-------------|-------|-------------|

F                  Bb         F                 C
-1----------------|-1--------|-1---------------|-----0-1-0-1-|
-1----------------|-1--1-1---|-1---------------|---1---------|
-2----------------|-3------3-|-2---------------|-------------|
-3----------------|-3--------|-3---------------|-------------|
-3----------------|-1--------|-3---------------|-3-----------|
-1----------------|----------|-1---------------|-------------|
                  |          |                 |
------------------|----------|-----------------|-------------|
------------------|----------|-----------------|-------------|
---2-0----2-0---2vvvvvv------|---2-0---2-0---0vvvvvvv--------|
-------3------3---|----------|-------3-----3---|-------------|
-3----------------|----------|-3---------------|-------------|
------------------|----------|-----------------|-------------|

F                  Bb             F                 C               F
-1----------------|-1------1-----|-1---------------|-0----0-1--0-1-|
-1----------------|-1----1---1---|-1---------------|-1--1----------|
-2----------------|-3--3-------3-|-2---------------|-0-------------|
-3----------------|-3------------|-3---------------|-2-------------|
-3----------------|-1------------|-3---------------|-3-------------|
-1----------------|--------------|-1---------------|---------------|
                  |              |                 |               |
------------------|--------------|-----------------|---------------|
------------------|--------------|-----------------|---------------|
---2-0----2-0---2vvvvvv----------|---2-0---2-0---0vvvvvv-----------|
-------3------3---|--------------|-------3-----3---|---------------|
-3----------------|--------------|-3---------------|---------------|
------------------|--------------|-----------------|---------------|


              Bb                F
Now if you're lookin' for a hero
            C          F
Someone to save the day
       Bb           F
Well darlin' my feet
         C          F
They're made of clay
              D                  F
But I've got somethin' in my soul
                    D  Bb
And I wanna give it up
                     C  Bb
But gettin' up the nerve
               D    Bb
Gettin' up the nerve
               C                       F
Gettin' up the nerve is a man's man's job

               Bb          F
Lovin' you's a man's job baby
               C        F
Lovin' you's a man's job
               Bb         F
Lovin' you's a man's job baby
               C        Bb
Lovin' you's a man's job


 Bb F  C  D  A
-1--1--0--2--0-
-3--1--1--3--2-
-3--2--0--2--2-
-3--3--2--0--2-
-1--3--3-----0-
----1----------


b....bend
rb...release bend
/....slide up
....slide down
>....hammer
<....pull
vvv..vibrato



-----------------------------------------
ADD A COMMENT:
NAME: EMAIL: WEBPAGE: ICQ: MSN: COMMENT: