Cross My Heart - As performed by Bruce Springsteen
(Bruce Springsteen/Sonny Boy Williamson)

              E
First time I crossed my heart

I was beggin' baby please

At your bedside down on my knees
        A
When I crossed my heart
             E
It's when I crossed my heart
   B                                E
I crossed my heart pretty baby over you


Second time I crossed my heart

Rain came in from the south

I was lyin' there with something sweet and salty in my mouth
        A
When I crossed my heart
               E
That's when I crossed my heart
   B                                   E
I crossed my heart pretty darlin' over you

                       A
Well you may think the world's black and white
            E
And you're dirty or you're clean
            A
You better watch out you don't slip
              B
Through them spaces in between

          E
Where the night gets sticky

And the sky gets black

I grabbed you baby you grabbed me back
        A
And we crossed our hearts
    E
We crossed our hearts
        B                  E
Yeah I crossed my heart hmmmm

E
-----------------------|-------------------------|-------------------------|
--------15-15-15-------|-15-15-15-15-------------|----------15-15-15-------|
--14>16----------14<16-|-------------16<14-12----|----14>16----------14<16-|
----b--------------b---|---------------rb-----14vvvv----b--------------b---|
-----------------------|-------------------------|-------------------------|
-----------------------|-------------------------|-------------------------|

                          A
-------------------------|-------------------------|-------------------------|
-15-15-15-15-------------|----------15-15-15-------|-15-15-15-15-------------|
-------------16<14-12----|----14>16----------14<16-|-------------16<14-12----|
---------------rb-----14vvvv----b--------------b---|---------------rb-----14vv
-------------------------|-------------------------|-------------------------|
-------------------------|-------------------------|-------------------------|

E                                                     B
-------------------------|---------------------------|---------------|
----------15-15-15-------|-15-15-15-15---------------|---15-------15-|
----14>16----------14<16-|-------------16<14-12-14-14>16----14>16----|
vv----b---------------b--|---------------rb----------b--------b------|
-------------------------|---------------------------|---------------|
-------------------------|---------------------------|---------------|

                          E
-------------------------|-------------------------|---------------------------
-------15-12-------------|----------15-15-15-------|-15-15-15------------------
-14>16-------14-12-------|----14>16----------14>16-|----------16<14-12---------
---b---------------14-12-|-14---b--------------b---|------------rb-----14-14vvv
-------------------------|-------------------------|---------------------------
-------------------------|-------------------------|---------------------------
                                                                  Well little...


       A
Little boys little girls
                 E
They know their wrongs from their rights
          A
Once you cross your heart
           B
You ain't ever supposed to lie

     E
Well life ain't nothin'

But  cold hard ride

I ain't leavin' 'til I'm satisfied
   A
I cross my heart
        E
Yeah I cross my heart
        B                                  E | E
Well I cross my heart pretty darlin' over you


(Guitar solo) | A7 | A7 | E | E | A7 | A7 | E | E |

A7
Gonna cross my heart 
E
Gonna cross my heart
A7
Gonna cross my heart
E
Gonna cross my heart
A7
Gonna cross my heart



 E  A  B  A7
-0--0--2--0--
-0--2--4--2--
-1--2--4--0--
-2--2--4--2--
-2--0--2--0--
-0-----------



-----------------------------------------
ADD A COMMENT:
NAME: EMAIL: WEBPAGE: ICQ: MSN: COMMENT: