Soul Driver - Bruce Springsteen 


F#m               A                      B                        F#m
----|-14---------|---14----------|------|----|-------------------|-------------|
----|-------17vvvvv--------17----|-15vvvvv---|-------------------|-------------|
----|----16------|------16----14-|------|----|----16----14vvv----|-------------|
----|------------|---------------|------|----|-16----14----------|----16-14vvv-|
----|------------|---------------|------|----|----------------14-|-16----------|
----|------------|---------------|------|----|-------------------|-------------|
 
                                      A                         F#m
-------------------|------|----------|------------|------------|------|----------|
-------------------|------|----------|------------|------------|------|-14>15<14-|
-16>18<16-14-------|------|----13/14-|-14/16-16vvvvv---16>18<16>18----|---b--rb--|
---b--rb-----16<14-|-16vvvvv-----s---|---s--------|------b--rb-b------|----------|
---------------p---|------|----------|------------|------------|------|----------|
-------------------|------|----------|------------|------------|------|----------|

A                               D      Bm    F#m
----------------|--------------|------|-----|---------|-----
----------------|--------------|------|-----|---------|-----
-1614-16-16>18-|-16>18<16--14-|-13vv-|----9>11<9>11vvvvv---
---s--------b---|---b--rb------|------|-----b-rb-b----|-----
----------------|--------------|------|-----|---------|-----
----------------|--------------|------|-----|---------|-----

                                 A
Rode through forty nights of the gospels' rain
          F#m
Black sky pourin' snakes frogs
A
And love in vain
         D              Bm           F#m
You were down where the river grows wilder
D           E            F#m
Baby let me be your soul driver

                                     A
Well if something in the air feels a little unkind
              F#
Don't worry darlin'
          A
Oh, it'll slip your mind
             D            Bm          F#m
I'll be your gypsy joker your shotgun rider
 D          E            F#m
Baby let me be your soul driver



(Keyboard solo) | F#m | F#m | A | A | F#m | F#m | A | A |
(Guitar solo)

A             D                    Bm                   F#m
-------------|--------------------|--------------------|--------------------|
----15<14----|----14--------14----|----14--------14----|----14--------14----|
------p------|-14----14-----------|-14----14-----------|-14----14-----------|
-16-------16-|----------16-----16-|----------16-----16-|----------16-----16-|
-------------|--------------------|--------------------|--------------------|
-------------|--------------------|--------------------|--------------------|

                    D                   E                   F#m
-------------------|-------------------|-------------------|---------|-------
-15-14----14-14----|-------------------|-------------------|---------|-------
-------------------|-16----16-16<14----|-14<13----13-13-13-|-13>14<13>14<13--
-------16-------16-|----16------p---14-|---p---14----------|---b--rb-b-------
-------------------|-------------------|-------------------|---------|-------
-------------------|-------------------|-------------------|---------|-------


    Bm                     A
Now no one knows which way love's wheel turns
        D       Bm
Will we hit it rich
    F#m
Or crash and burn
      Bm                             A
Does fortune wait or just the black hand of fate
                       E
This love potion's all we've got
                D             | D | F#m | A
One toast before it's too late

        F#m                      A
If the angels are unkind or the season is dark
      F#m
Or if in the end
          A
Love just falls part
      D         Bm      F#m
Then here's to our destruction
  D          E            F#m
Baby let me be your soul driver
 D         Bm      F#m
Here's to our destruction
  D          E            F#m
Baby let me be your soul driver

| F#m | F#m | A | A | F#m | F#m | A | A |
| D | Bm | F#m | F#m | D | E | F#m | F#m |
| D | Bm | F#m | F#m | D | E | F#m | F#m 


 F#m A  D  E  Bm
-2---0--2--0--2-
-2---2--3--0--3-
-2---2--2--1--4-
-4---2--0--2--4-
-4---0-----2--2-
-2---------0----


b....bend
rb...release bend
/....slide up
....slide down
>....hammer
<....pull
vvv..vibrato



-----------------------------------------
ADD A COMMENT:
NAME: EMAIL: WEBPAGE: ICQ: MSN: COMMENT: