Cadillac Ranch - Bruce Springsteen

    G                                 C                  G
---|------------------|--------------|-s--3--3---s-3--3-|-s---------------|
---|-s--3--3-s--3-3-3-|-s--3-5---3-3-|-/5-------/5------|-/5-3--3---3-3-3-|
-0-|-/4------/4-------|-/4-----4-----|------------------|---------4-------|
---|------------------|--------------|------------------|-----------------|
---|------------------|--------------|------------------|-----------------|
---|------------------|--------------|------------------|-----------------|

                                  C                    D        G
------------------|--------------|-s--3-3-3--s--3-3-3-|-5-5/7-53---|
-s-3-3-3--s--3--3-|-s--3-5---3-3-|-/5--------/5-------|----b---s----|
-/4-------/4------|-/4-----4-----|--------------------|-------------|
------------------|--------------|--------------------|-------------|
------------------|--------------|--------------------|-------------|
------------------|--------------|--------------------|-------------| (repeat 1x)


      G
Well, there she sits buddy justa gleaming in the sun
        C                           G
Right there to greet a working man when his day is done

I'm gonna pack my pa and I'm gonna pack my aunt
      C                          D        G
I'm gonna take them down to the Cadillac Ranch


Elderado fins, whitewalls and skirts
       C                         G
Rides just like a little bit of heaven here on earth

Well buddy when I die throw my body in the back
           C                        D     G
And drive me to the junkyard in my Cadillac

  G
Cadillac, Cadillac
  C            G
Long and dark, shiny and black

Open up your engines let 'em roar
  C                             D         G
Tearing up the highway like a big old dinosaur

  G
James Dean in that Mercury '49
   C                                 G
Junior Johnson running through the woods of Caroline

Even Burt Reynolds in that black Trans-Am
   C                         D       G
All gonna meet down at the Cadillac Ranch


  G
Cadillac, Cadillac
  C            G
Long and dark, shiny and black

Open up your engines let 'em roar
  C                             D         G
Tearing up the highway like a big old dinosaur


(Solo) | G | G | C | G | G | G | C | D G |


Hey, little girlie in the blue jeans so tight
   C                       G
Driving alone through the Wisconsin night

You're my last love baby, you're my last chance
     C                         D          G
Don't let them take me to the Cadillac Ranch

  G
Cadillac, Cadillac
  C             G
Long and dark, shiny and black

Pulled up to my house today
  C               D           G
Came and took my little girl away

(2x intro by sax & guitar)


 G  C  D
-3--0--2-
-0--1--3-
-0--0--2-
-0--2--0-
-2--3----
-3-------

b....bend
rb...release bend
/....slide up
....slide down
>....hammer
<....pull
vvv..vibrato


-----------------------------------------
ADD A COMMENT:
NAME: EMAIL: WEBPAGE: ICQ: MSN: COMMENT: