Born to Run - Bruce Springsteen

E                  A     B        E                  A     B
--0---|-----------|-----|--------|------|-----------|-----|--------|
--0---|-----------|-----|--------|------|-----------|-----|--------|
--1---|-----2--1--|-----|--------|------|-----2--1--|-----|--------|
--2---|-----------|-----|--2--4--|------|-----------|-----|--2--4--|
--2---|--2--------|--4--|--------|--2---|--2--------|--4--|--------|
--0---|-----------|-----|--------|------|-----------|-----|--------|

       E                                       Asus                  Bsus
In the day we sweat it out in the streets of a runaway American dream
    E                                         Asus       Bsus
At night we ride through mansions of glory in suicide machines
A                        c#m/G#
Sprung from cages out on highway 9,
        F#m                       C#m/G#                 E
Chrome wheeled, fuel injected and steppin' out over the line
D/E  A                      C#m/G#
Oh, Baby this town rips the bones from your back
       F#m                 C#m/G#
It's a death trap, it's a suicide rap
         E                   C#m
We gotta get out while we're young
         A              Bsus                  E
`Cause tramps like us, baby we were born to run

E                  A     B        E                  A     B
------|-----------|-----|--------|------|-----------|-----|--------|
------|-----------|-----|--------|------|-----------|-----|--------|
------|-----2--1--|-----|--------|------|-----2--1--|-----|--------|
------|-----------|-----|--2--4--|------|-----------|-----|--2--4--|
--2---|--2--------|--4--|--------|--2---|--2--------|--4--|--------|
------|-----------|-----|--------|------|-----------|-----|--------|
                        Yes girl we were

       E
Wendy let me in I wanna be your friend
            Asus                  Bsus
I want to guard your dreams and visions
       E
Just wrap your legs round these velvet rims
     Asus                       Bsus
and strap your hands across my engines
      A                C#m/G#
Together we could break this trap
        F#m              C#m/G#                E
We'll run till we drop, baby we'll never go back
D/E   A                          C#m/G#
Oh,  you walk with me out on the wire
        F#m                        C#m/G#
`Cause baby I'm just a scared and lonely rider
           E                 C#m
But I gotta find out how it feels
           A                     Bsus                             E
I want to know if love is wild, baby I want to know if love is real

E                  A     B        E                  A     B
------|-----------|-----|--------|------|-----------|-----|--------|
------|-----------|-----|--------|------|-----------|-----|--------|
------|-----2--1--|-----|--------|------|-----2--1--|-----|--------|
------|-----------|-----|--2--4--|------|-----------|-----|--2--4--|
--2---|--2--------|--4--|--------|--2---|--2--------|--4--|--------|
------|-----------|-----|--------|------|-----------|-----|--------|

Sax Solo | E | E | Asus | Bsus | E | E | Asus | Bsus | C#m | C#m B E | E | Bm7 |

   Dsus     D           Dsus    D
Beyond the Palace hemi-powered drones 
     Gsus     G           Gsus  G
Scream down the boulevard
           Asus       A        Asus      A
The girls comb their hair in rearview mirrors
           Csus  C           Csus  C
And the boys try to look so hard
      Dsus      D        Dsus       D
The amusement park rises bold and stark
          Gsus      G               Gsus  G
Kids are huddled on the beach in a mist
        Asus      A               Asus     A
I wanna die with you Wendy on the streets tonight
      Csus  C         Csus C
In an everlasting kiss


Fsus           F                   Fsus        F
---------------------------------|-------------------------------|
---------------------------------|-------------------------------|
---------------------------------|-------------------------------|
---------------------------------|-------------------------------|
---------------------------------|-----------------3-3-3---------|
-1-1-1-1-1-1-1-1-1-1-1-1-1-1-1-1-|-1-1-1-1-1-1-15-------5/3-1-1-|

Fsus           F                 C
-------------------------------|---------------------------------|
-------------------------------|---------------------------------|
-------------------------------|---------------------------------|
-------------------------------|---------------------------------|
-----------------3-3-3---------|-3-3-3-3-3-3-3-3-3-3-3-3-3-3-3-3-|
-1-1-1-1-1-1-15-------5/3-1-1-|---------------------------------|

C                                   Fsus         F
-----------------------------------|---------------------------------|
-----------------------------------|---------------------------------|
-----------------------------------|---------------------------------|
-----------------------------------|---------------------------------|
-3-3-5-5/6-6-6-6-6-6-6-6-6-6-5-3-0-|---------------------------------|
-----------------------------------|-1-1-1-1-1-1-1-1-1-1-1-1-1-1-1-1-|

F#sus          F#                  F#sus F
---------------------------------|------------------------|
---------------------------------|------------------------|
---------------------------------|------------------------|
---------------------------------|------------------------|
-----3-3-3-3-------------------3-|------------------------|
-3/5---------53-1-1-1-1-1-3/5---|-2--3-3-3-3-3-3-4-4-4-4-|

F#sus        F#
-----------------------|--------|--------|-----------|
-----------------------|--------|--------|-----------|
-----------------------|--------|--------|-----------|
-----------------------|--------|--------|-----------|
-----------------------|--------|--------|-----6-5-4-|
-4-4-5-5-5-5-5-5-6-2--|-7-6-5--|-4-3-2--|-1-0-------|

-----------|-----|----|----|------------------|
-----------|-----|----|----|------------------|
-----------|-----|----|----|------------------|
-----------|-----|----|----|------------------|
--3-3-3-3--|--2vvvvvvvvvvvvvvvvvvvvvvvvvvvvvvv|
-----------|-----|----|----|------------------|
                            One Two Three Four


 E                                        Asus               Bsus
Highway's jammed with broken heroes on a last chance power drive
     E                                         Asus             Bsus
Everybody's out on the run tonight but there's no place left to hide
          A          C#m/G#
Together Wendy we'll live with the sadness
            F#m             C#m/G#           E
I'll love you with all the madness in my soul
D/E    A            C#m/G#                      F#m
Oh, Someday girl I don't know when we're gonna get to that place
            C#m                  E
Where we really want to go and we'll walk in the sun
                A             Bsus                E
But till then tramps like us baby we were born to run
C#m       A              B                    E   
Oh honey, tramps like us baby we were born to run
C#m            A             B                E
Come on Wendy, tramps like us we were born to run

E                  A     B        E                  A     B
------|-----------|-----|--------|------|-----------|-----|--------|
------|-----------|-----|--------|------|-----------|-----|--------|
------|-----2--1--|-----|--------|------|-----2--1--|-----|--------|
------|-----------|-----|--2--4--|------|-----------|-----|--2--4--|
--2---|--2--------|--4--|--------|--2---|--2--------|--4--|--------|
------|-----------|-----|--------|------|-----------|-----|--------|

E                  A     B
------|-----------|-----|--------|
------|-----------|-----|--------|
------|-----2--1--|-----|--------|
------|-----------|-----|--2--4--|
--2---|--2--------|--4--|--------|
------|-----------|-----|--------|



  E  A  B  C#m F#m D  Dsus G  Gsus C  Csus A  Asus Bm7 F# F#sus     C#m/G# D/E
--0--0--2--4---2---2--3----3--3----0--1----0--0----2---2--2---------x------2------------        
--0--2--4--5---2---3--3----0--1----1--1----2--3----3---2--2---------5------3------------        
--1--2--4--6---2---2--2----0--0----0--0----2--2----2---3--4---------6------2------------        
--2--2--4--6---4---0--0----0--0----2--2----2--2----4---4--4---------6------2------------
--2--0--2--4---4-----------2--2----3--3----0--0----2---4--4---------4------x------------
--0------------2-----------3--3------------------------2--2---------4------0------------


Thanks to Carl from Sweden.
-----------------------------------------
COMMENTS:

PHIL HOMER www.geocities.com/uncletravellingphil 27/3/2004 - 14:45:03
He's certainly been busy elsewhere... is he copying them all out of a book or what? (except this obvioulsy)
ANONYMOUS www.lovebolts.co.uk 23/3/2004 - 18:31:53
I agree With Phil - Aladdin is one of the most thorough transcribers ever to have blessed us guitarists with his insight! er...
PHIL HOMER www.geocities.com/uncletravellingphil 23/3/2004 - 18:27:07
Surely it's in E???
----------------------------------------- ADD A COMMENT:
NAME: EMAIL: WEBPAGE: ICQ: MSN: COMMENT: