This is the bass tab for the song:

intro/outro
g----------------------------------------------------------
d-------------432--2----------------------432--2-----------
a-5--5-432--2--------210--0-245--5-432--2--------210--0-24-
e----------------------------------------------------------

verse/chorus
g----------------------------------------------------------
d-------------432--2----------------------432--2-----------
a-5--5-432--2--------210--0-245--5-432--2--------210--0-24-
e----------------------------------------------------------

stick
g---------------------------
d---------------2--2--------  4x
a-2--2---5--5---------2--2--
e---------------------------


-----------------------------------------
ADD A COMMENT:
NAME: EMAIL: WEBPAGE: ICQ: MSN: COMMENT: