Wood Jackson - David Bowie
Heathen B-Side
Transcribed by Sam John



G--------------------------------------------------------------------------

D------------------------3----1----------2----5---3----1----0---------------

A --6/11----9---8----1------------4--3-------------------------------------

E--------------------------------------------------------------------------


G-7-------------8----------------------------------------------------------

D--------------------------------------------------------------------------

A-----5---6---------6-----------4-----3------6------8-----6-----4----3----

E---------------------------------------------------------------------------


G-------------------------------

D-------------------------------

A--6------8-----6-----4----3----

E-------------------------------


G-------------------------------------

D-----6--------------------------------5----------------6----------------4--

A---------6-----------3---------6------------4------7---------7-----6-------

E--4-----------4------------------------------------------------------------
									X 3



G----------------------------------

D----------------------------------

A----------------------------------

E-2-------2--2----1------1--1------

Second Verse


G---------------------------------------7-------------8-------------6-----

D------------5-------3----1----0-------------------------------------------

A-3-----6------------------------------------5---6--------6----4-------4-3-

E--------------------------------------------------------------------------



G--------------------------------------------------------------------------

D---------------------------------------------------------------------------

A-6------8-----6-----4----3---------6------8-----6-----4----3------------

E-------------------------------------------------------------------------
-----------------------------------------
COMMENTS:

FEEOWNER CROSS THE LAND 8/5/2004 - 14:56:28
So much hot air. Em isn't, she's real to you so eff off. Johnny seems to think so-agrees with my conclusion and who am I to contradict a fan who probably has unfettered access to your inner ring and arcane knowledge
----------------------------------------- ADD A COMMENT:
NAME: EMAIL: WEBPAGE: ICQ: MSN: COMMENT: