"FAME"
By David Bowie, John Lennon, Carlos Alomar
From the album "Young Americans"


Intro Chords:

  Fm   Cm   Bb   Bb7
|-1--|-1--|-1--|--4--|
|-1--|-4--|-3--|--3--|
|-1--|-5--|-3--|--3--|
|-3--|-5--|-3--|--3--|
|-3--|-3--|-1--|-(1)-|
|-1--|----|----|-----|

Rhythm on an                                               Switches 
F7(#9) chord:                                              to Bb7:

|--4--|-------------------------------------------|-[8]-| |--4--|
|--4--|--4---3---4-----4-----3---4-----4---3---4--|-[9]-| |--3--|
|--2--|-[8]-[7]-[8]---[8]---[7]-[8]---[8]-[7]-[8]-|-[8]-| |--3--|
|--3--|-------------------------------------------|-[7]-| |--3--|
|-(0)-|------------rhythm varies------------------|-----| |-(1)-|
|-(1)-|-------------------------------------------|-----| |-----|

Riff:

|----------|
|----------|
|-------1~-|
|-0-1-3----|
|----------|
|----------|
-----------------------------------------
COMMENTS:

ZL www.lovebolts.co.uk 4/9/2003 - 15:36:42
The intro to this one is a hard one. This is what I made of it:
E-8-H11P8------8-6-----10-8---6---8\-
B-9------8H9P8-8-6-------------------
G-10-----------8-7-8/10----7H8--878\-
D------------------------------------
A------------------------------------
E------------------------------------
And I have no idea whether that's right, it's such a fast little lick!
----------------------------------------- ADD A COMMENT:
NAME: EMAIL: WEBPAGE: ICQ: MSN: COMMENT: