Two For The Road - Bruce Springsteen


     G
It's one for the money and one for the show
                                     C
I got one kiss for you honey so come on let's go
                                D
I didn't see it coming but girl now I know
                                     G
It takes one for the running but two for the road


One thousand dreams whispered in the dark
                                  C
But a dream's just a dream in one empty heart
                                 D
It takes more than one to rev it up and go
                                   G           C
So let's get it running, we're two for the road


Two one-way tickets and a diamond ring
                              G
Hell it don't matter what the rain might bring
                           D
When this world treats you hard and cold
                                 G
I'll stand beside you, we're two for the road

G                                    C
-7-7-7-7-------|----7-7-|-7-7-7-7-8-|-7-------|-7/8-8-8-8<7--5/7-|
----------10-8-|-10-----|-----------|---10-10-|--s-------p----s--|
---------------|--------|-----------|---------|------------------|
---------------|--------|-----------|---------|------------------|
---------------|--------|-----------|---------|------------------|
---------------|--------|-----------|---------|------------------|

D                          G
-7-------|--------------7-|--------|
---10-10-|-10-10-10-10----|-10-8-8-|
---------|----------------|--------|
---------|----------------|--------|
---------|----------------|--------|
---------|----------------|--------|


When you're alone my love will shine the light
                     C
Through the dark and starless night
                        D
I'll hold you close and never let you go
                                  G
Come on now girl 'cause we're two for the road
          C                          D
Well it's two to get ready, babe come on let's go
                                 G
Yeah me and you girl we were two for the road

(Instr. verse to fade out)

 G  C  D
-3--0--2-
-0--1--3-
-0--0--2-
-0--2--0-
-2--3----
-3-------

b....bend
rb...release bend
/....slide up
....slide down
>....hammer
<....pull
vvv..vibrato

-----------------------------------------
ADD A COMMENT:
NAME: EMAIL: WEBPAGE: ICQ: MSN: COMMENT: