Artist: David Bowie
    Song: "5:15 The Angels Have Gone"
    Author: Mark Eggertsen
    E-mail: MarkiePost@hotmail.com

    The song's only real guitar riff is this one below which repeats 
with frequent regularity throughout the song. However, I'll also 
transcribe the chords below.

TablEdited by 
Tuning : E A D G B E 	Time Signature: 4/4

 |       |       |       |        |       |       |       |        
|--------------------------------|--------------------------------|
|--------------------------------|--------------------------------|
|--------------------------------|--------------------------------|
|0---2-------------------0---0---|0---2---------------------------|
|--------2---3-------------------|--------2---3-------------------|
|----------------0---3-----------|----------------3---------------|

The verse and main theme of the song is very simple. The chords 
used are Am, C, G, and B. Play along with the song for the rythm, 
which is fairly dismal. An attempt at a stumming rhythm follows 
below this next transcription.
 Am      C       G       B
 |       |       |       |        |       |       |       |        
|0-------0-------3-------2-------|--------------------------------|
|1-------1-------0-------4-------|--------------------------------|
|2-------0-------0-------4-------|--------------------------------|
|2-------2-------0-------4-------|--------------------------------|
|0-------3-------2-------2-------|--------------------------------|
|----------------3---------------|--------------------------------|

Tuning : E A D G B E 	Time Signature: 4/4

 |       |       |       |        |       |       |       |        
|5---------5---5---5---5---5-----|8---------8---8---8---8---8-----|
|5---------5---5---5---5---5-----|8---------8---8---8---8---8-----|
|5---------5---5---5---5---5-----|9---------9---9---9---9---9-----|
|7---------7---7---7---7---7-----|10--------10--10--10--10--10----|
|7---------7---7---7---7---7-----|10--------10--10--10--10--10----|
|5---------5---5---5---5---5-----|8---------8---8---8---8---8-----|

 |       |       |       |        |       |       |       |        
|3---------3---3---3---3---3-----|--7---------7---7---7---7---7---|
|3---------3---3---3---3---3-----|--7---------7---7---7---7---7---|
|4---------4---4---4---4---4-----|--8---------8---8---8---8---8---|
|5---------5---5---5---5---5-----|--9---------9---9---9---9---9---|
|5---------5---5---5---5---5-----|--9---------9---9---9---9---9---|
|3---------3---3---3---3---3-----|--7---------7---7---7---7---7---|

Only two whole chords for the chorus, I believe. Fm, and E.

"Weeeeeeeeeeeeeeeeee . . . . . . . . . . . . . . . . . . . "
 |       |       |       |        |       |       |       |        
|2---------2---2---2---2---2-----|2---------2---2---2---2---2-----|
|2---------2---2---2---2---2-----|2---------2---2---2---2---2-----|
|2---------2---2---2---2---2-----|2---------2---2---2---2---2-----|
|4---------4---4---4---4---4-----|4---------4---4---4---4---4-----|
|4---------4---4---4---4---4-----|4---------4---4---4---4---4-----|
|2---------2---2---2---2---2-----|2---------2---2---2---2---2-----|
"Never talk anymore."
 |       |       |       |        |       |       |       |        
|0-------------------------------|--------------------------------|
|0-------------------------------|--------------------------------|
|1-------------------------------|--------------------------------|
|2-------------------------------|--------------------------------|
|2-------------------------------|--------------------------------|
|0-------------------------------|--------------------------------|

The Electric in the song bends the root not (fat string) of the E 
chord very, very slowly, as the E chord should only be strummed once 
and sustained in order to make it sound even remotely like the 
recording.

There are a few variations, but for the most part, this is the 
song. Maybe I'll work out the variations later. Send any comments 
to MarkiePost@hotmail.com.

Created with TablEdit http://www.tabledit.com/

-----------------------------------------
COMMENTS:

FEEOWNER CROSS THE LAND 8/5/2004 - 13:43:30
Don't let me hear life is taking you nowhere Angelina but it did and it does. Well Bart Busterfield (That was the moniker David gave himself in Prague in 1992 in a message) you really are a little hooligan aren't you?A left-hand jumper(other part of message) like you is hardly likely to be trusted.
----------------------------------------- ADD A COMMENT:
NAME: EMAIL: WEBPAGE: ICQ: MSN: COMMENT: