One Step Up - Bruce Springsteen

Capo 3rd fret
G                         D                         Em7
-------0----|-------0----|-------0----|-------0----|-------0----|-------0----|
---3--------|---3--------|---3--------|---3--------|---3--------|---3--------|
-----0---0--|-----0---0--|-----2---2--|-----2---2--|-----0---0--|-----0---0--|
------------|------------|------------|------------|------------|------------|
------------|------------|------------|------------|------------|------------|
-3----------|-3----------|-2----------|-2----------|-0----------|-0----------|

D                         G
-------0----|-------0----|-------0----|-------0----|
---3--------|---3--------|---3--------|---3--------|
-----2---2--|-----2---2--|-----0---0--|-----0---0--|
------------|------------|------------|------------|
------------|------------|------------|------------|
-2----------|-2----------|-3----------|-3----------|

G
Woke up this morning my house was cold
D
Checked out the furnace she wasn't burnin'
Em7
Went out and hoped in my old Ford
D
Hit the engine but she ain't turnin'
 G
We're given each other some hard lessons lately
D
But we ain't learnin'
    Em7            D              G
We're the same sad story that's a fact
          A7                G              D           Em7         D
One step up and two steps back -----------|-----------|-----------|-------------|
                               ---6-5-6vv-|---6-5-6vv-|-8>10-10-8-|-6-5-5-6-----|
                               -5---------|-5---------|--h--------|---------5vv-|
                               -----------|-----------|-----------|-------------|
                               -----------|-----------|-----------|-------------|
                               -----------|-----------|-----------|-------------|
                               (notation without capo)

G
Bird on a wire outside my motel room
D
But he ain't singin'
Em7
Girl in white outside a church in June
D
But the church bells they ain't ringing
G
I'm sitting here in this bar tonight
D
But all I'm thinkin' is
       Em7         D             G
I'm the same old story same old act
          A7               G
One step up and two steps back

G       G       D       D       Em7     Em7       D       D
-------|-------|-------|-------|-------|---------|-------|-----------|
-----6-|-------|-------|-------|-------|---------|-------|-----------|
---5---|-------|-------|-------|-------|---------|-------|-----------|
-------|-7-5---|-------|-------|-5-7vv-|-7-5-----|-------|-------5---|
-------|-----8-|-5-----|---5-8-|-------|-----8---|--h----|---5-8---5-|
-------|-------|---8vv-|-8-----|-------|-------8-|-5>8vv-|-8---------|
(notation without capo)

G
It's the same thing night on night
D
Who's wrong baby who's right
Em7
Another fight and I slam the door on
D
Another battle in our dirty little war
G
When I look at myself I don't see
D
The man I wanted to be
E7                   D                 G
Somewhere along the line I slipped off track
                            A7               G
I'm caught movin' one step up and two steps back

G     G     D       D       Em7     Em7       D       D

-----|-----|-------|-------|-------|---------|-------|-----------|
---6-|-----|-------|-------|-------|---------|-------|-----------|
-5---|-----|-------|-------|-------|---------|-------|-----------|
-----|-----|-------|-------|-5-7vv-|-8-7-5---|-------|-----------|
-----|-7-8-|-5-----|---5-8-|-------|-------8-|-5-----|---5-8-5vv-|
-----|-----|---8vv-|-8-----|-------|---------|---8vv-|-8---------|
(notation without capo)

G
There's a girl across the bar
D
I get the message she's sending
Em7
Mmm she ain't lookin' to married
D
And me well honey I'm pretending
G
Last night I dreamed I held you in my arms
D
The music was never-ending
Em7                        D           G
We danced as the evening sky faded to black
          A7                G 
One step up and two steps back
          A7                G 
One step up and two steps back
          A7                G 
One step up and two steps back
          A7                G 
One step up and two steps back
          A7                G 
One step up and two steps back

G      G    D        D       Em7     Em7     D       D
------|--5vvv-5-----|-------|-------|-5-6vv-|-6<5---|-------|
---6-6/8---|----8-6-|-------|-----6-|-------|--p--8-|-------|
-5----s----|--------|-7-5vv-|-5-7---|-------|-------|-7-5vv-|
------|----|--------|-------|-------|-------|-------|-------|
------|----|--------|-------|-------|-------|-------|-------|
------|----|--------|-------|-------|-------|-------|-------|
(notation without capo)

| G | G | D | D | Em7 | Em7 | D | D | (fadeout)
Uuuuuuhhh......

 G  D  Em7 A7
-3--2--0---0-
-0--3--0---2-
-0--2--0---0-
-0--0--0---2-
-2-----2---0-
-3-----0-----

b....bend
rb...release bend
/....slide up
....slide down
>....hammer
<....pull
vvv..vibrato

-----------------------------------------
ADD A COMMENT:
NAME: EMAIL: WEBPAGE: ICQ: MSN: COMMENT: