The Promised Land - Bruce Springsteen

| G | C G | Em C | C G |

     G                           Em
On a rattlesnake speedway in the Utah desert
   C                                  G
I pick up my money and head back into town
                             Em
Driving cross the Waynesboro county line
          C                              G
I got the radio on and I'm just killing time
 Em                   G
Working all day in my daddy's garage
 Em                       Am
Driving all night chasing some mirage
 C                             D7
Pretty soon little girl I'm gonna take charge

      G                                  C     G
The dogs on Main Street howl `cause they understand
            Em       C              G
If I could take one moment into my hands
                         C     G
Mister I ain't a boy no I'm a man
    Em     C                 G
And I believe in a promised land

G                        Em
I've done my best to live the right way
       C                                   G
I get up every morning and go to work each day
                                Em
But your eyes go blind and your blood runs cold
             C                             G
Sometimes I feel so weak I just want to explode
 Em                   G
Explode and tear this town apart
  Em                            Am
Take a knife and cut this pain from my heart
  C                           D7
Find somebody itching for something to start

      G                                  C     G
The dogs on Main Street howl `cause they understand
            Em       C              G
If I could take one moment into my hands
                         C     G
Mister I ain't a boy no I'm a man
    Em     C                 G
And I believe in a promised land

| G | Em | C | D | G | Em | C | D 

            G                 Em                      C
--------15-|-17/19vvvv----15-|-17/1917-15-15vvvv----|-15-17/1917-15-15-17-19-|
-----15----|---b-------15----|---b--rb------------15-|------b--rb--------------|
-----------|-----------------|-----------------------|-------------------------|
-----------|-----------------|-----------------------|-------------------------|
-----------|-----------------|-----------------------|-------------------------|
-----------|-----------------|-----------------------|-------------------------|

D                      G           Em               C
-19/2019-17-17-15----|-----------|----------------|----------------------|
---b--rb-----------17-|-15vvvv-/1715vvvv-1513-13-|-13vvvv-12---------12-|
----------------------|--------s--s---------s------|------------14vvvv----|
----------------------|-----------|----------------|----------------------|
----------------------|-----------|----------------|----------------------|
----------------------|-----------|----------------|----------------------|

D             G
-------12-14-|-15--
-13-15-------|-----
-------------|-----
-------------|-----
-------------|-----
-------------|----- 
              (Sax Solo) | Em | C | D | G | Em | C | D |
   (Harp Solo) | G | C G | Em C | C G | G | C G | Em C | C G |


          G                            Em
There's a dark cloud rising from the desert floor
            C                                       G
I packed my bags and I'm heading straight into the storm
                             Em
Gonna be a twister to blow everything down
            C                          G
That ain't got the faith to stand its ground
 Em                        G
Blow away the dreams that tear you apart
 Em                        G
Blow away the dreams that break your heart
 Em                      Am
Blow away the lies that leave you nothing 
     C              D7
But lost and brokenhearted   

      G                                  C     G
The dogs on Main Street howl `cause they understand
            Em       C              G
If I could take one moment into my hands
                         C     G
Mister I ain't a boy no I'm a man
    Em     C                 G
And I believe in a promised land
    Em     C                 G
And I believe in a promised land 
    Em     C                 G
And I believe in a promised land 

(Harp Solo) | G | C G | Em C | C G | G | C G | Em C | C G | (to fade out)


 G  C  Em D7 Am
-3--0--0--2--0-
-0--1--0--1--1-
-0--0--0--2--2-
-0--2--2--0--2-
-2--3--2-----0-
-3-----0-------


b....bend
rb...release bend
/....slide up
....slide down
>....hammer
<....pull
vvv..vibrato
-----------------------------------------
COMMENTS:

ZL www.lovebolts.co.uk ICQ 86687994 zlovebolt@hotmail.com 30/3/2004 - 9:59:27
I fixed it for ya Uncle Phil :)
PHIL HOMER www.geocities.com/uncletravellingphil 27/3/2004 - 14:43:11
Well that didn't work did it
PHIL HOMER www.geocities.com/uncletravellingphil 27/3/2004 - 14:42:47
This is very good but I have the solo as:
e:--------17b19--------17b19-17-15-15---------17b19--17-15-15--
B:-15-15-(slow)--15-15------------------15-15------------------
G:-------------------------------------------------------------
D:-------------------------------------------------------------
A:-------------------------------------------------------------
E:-------------------------------------------------------------

e:-17-19-20-19-17-17-15----------------------------------------
B:----------------------16b17-15~~~~~----15h17-15~~~---15------
G:-------------------------------------------------------------
D:-------------------------------------------------------------
A:-------------------------------------------------------------
E:-------------------------------------------------------------

e:-------------------------------------------------------------
B:----------------------------15-17-19-20~~~-------------------
G:-17-17-17~~~-----16-14-16-17---------------------------------
D:-------------------------------------------------------------
A:-------------------------------------------------------------
E:-------------------------------------------------------------
----------------------------------------- ADD A COMMENT:
NAME: EMAIL: WEBPAGE: ICQ: MSN: COMMENT: