Adam Raised A Cain - Bruce Springsteen

------|-----|-----|--------------|----------------|-----------/12-12vvv-|
-9=9--|-9=9-|-9=9-|-9=9----8---8-|-10/12vvv---9-10/12-10-8----s---------|
------|-----|-----|------9---9---|---b------9-----b--------9------------|
------|-----|-----|--------------|----------------|---------------------|
------|-----|-----|--------------|----------------|---------------------|
------|-----|-----|--------------|----------------|---------------------|

----------------|---------------|
-12-10-10vvvv---|---------------|
--------------9-|---------------|
----------------|-/97<5-2<0>2--|
----------------|-s-s-p---p-h---|
----------------|---------------|

       Em        Am          Em  Am          Em   Am           Em
In the summer that I was baptized my father held me to his side
               Am       Em  Am          Em    Am          Em
As they put me to the water he said how on that day I cried
         Am          C
We were prisoners of love a love in chains

|----------------------------------------------------------|
|--------10--------10--8-----------------8-----------------|
|-------------9-----------9-------7--9---------------------|
|----------------------------------------------------------|
|----------------------------------------------------------|
|----------------------------------------------------------|

         Am                        C
He was standin' in the door I was standin' in the rain

|----------------------------------------------------------|
|--------10--------10--8-----------------8-----------------|
|-------------9-----------9-------7--9---------------------|
|----------------------------------------------------------|
|----------------------------------------------------------|
|----------------------------------------------------------|


          Am                    B7
With the same hot blood burning in our veins

|---------------------------------10-------------------------|
|--------10--------8--10--/b--12------10/b 12----------------|
|-------------9----------------------------------------------|
|------------------------------------------------------------|
|------------------------------------------------------------|
|------------------------------------------------------------|

       Em
  Adam raised a Cain, Adam raised a Cain, Adam raised a Cain, Adam raised a Cain


|----------------0---------------------------------------------|
|----------------0---------------------------------------------|
|--------------------2-/b 4-b-2--0----------------------------|
|------2-----0-------------------------------------------------|
|--------------------------------------------------------------|
|--------------------------------------------------------------|


Em      Am      Em Am Em Am                 Em
All of the old faces ask you why you're back
          Am         Em  Am             Em         Am          Em
They fit you with position and the keys to your daddy's Cadillac
        Am                                         C
In the darkness of your room your mother calls you by your true name
      Em                     C
You remember the faces the places the names
     Am                         B7
You know it's never over it's relentless as the rain
     Em
Adam raised a Cain, Adam raised a Cain, Adam raised a Cain, Adam raised a Cain

(Solo) | Em Am | Em Am | Em Am |Am Em | Em Am | Em Am | Em Am |Am Em |
       | Em Am | Em Am | Em Am |Am Em | Em Am | Em Am | Em Am |Am Em |

Solo                                  4 xs
|----------------------------------------|
|----------------------------------------|
|.-9-9-9-9-9-9-9-9-9-9-9-9-9-9-9-9------.|
|.--------------------------------------.|
|----------------------------------------|
|----------------------------------------|


|-/-12--12--/12--12------12--12--12--12--12--12--12--12-----------------------------|
|-/-12--12--/12--12------12--12--12--12--12--12--12--12-----------------------------|
|-----------------------------------------------------------14-/b-16-b-14--p.o.-12-|
|-----------------------------------------------------------------------------------|
|-----------------------------------------------------------------------------------|
|-----------------------------------------------------------------------------------|


| Em | Em | Em | Em | Em |
 Aaaaaaaaaaaaaaaaaaahhhh

       Em  Am          Em  Am         Em  Am           Em
In the Bible Cain slew Abel and East of Eden he was cast
   Em         Am         Em     Am            Em            Am       Em
You're born into this life paying for the sins of somebody else's past  
       Am                        C
Daddy worked his whole life for nothing but the pain
        Am                                  C
Now he walks these empty rooms looking for something to blame
      Am                   B7
You inherit the sins you inherit the flames
     Em
Adam raised a Cain, Adam raised a Cain, Adam raised a Cain, Adam raised a Cain

  Am                             C
Lost but not forgotten from the dark heart of a dream
     Em
Adam raised a Cain (to fade out)




Thanks to bosshydro for his input.


Another suggestion for the intro:

|--------------------------------------------------------------|
|----5----5----5----5------------------------------------------|
|----4----4----4----4---/--2--2--/--1-/-2/4--4-4-/--6---------|
|--------------------------------------------------------------|
|--------------------------------------------------------------|
|-0----0----0----0---------------------0-------0---------------|


                                    "1.2.3.4....
|--------------------------------------------------------|
|--------------------------------------------------------|
|--4--4-----2-2/42--1-/-2-2---------------------------|
|--------------------------------------------------------|
|--------------------------------------------------------|
|--------0----------0------0-----------------------------|



  Em    Am    Am    Em
-----------|-----------|
-----------|-----------|
--------2--|-----------|
--------2--|--------2--|
--------0--|--0-----2--|
--0--3-----|-----3--0--|
(Accompaniment for verse)

 Em Am C  B7
-0--0--0--2-
-0--1--1--4-
-0--2--0--2-
-2--2--2--4-
-2--0--3--2-
-0----------

b....bend
rb...release bend
/....slide up
....slide down
>....hammer
<....pull
vvv..vibrato
=....fast strokes

-----------------------------------------
ADD A COMMENT:
NAME: EMAIL: WEBPAGE: ICQ: MSN: COMMENT: