Streets Of Fire Bruce Springsteen


Intro: A F#m x 2

Verse 1:
         A       F#m           A             F#m
When the night's quiet and you don't care anymore
         A        F#m               A               F#m
And your eyes are tired and there's someone at your door
        D  Bm  D  Bm              A  F#m  A   F#m
And you realize     you wanna let go
        E                 
And the weak lies and the cold walls you embrace
            D  Bm        D              Bm
Eat at your in-sides and babe I ain't a liar I walk
A          F#m 
Streets of fire
A          F#m
Streets of fire

Verse 2:
Now I'm wandering, a loser down these tracks
I'm a liar, but babe I can't go back
'Cause in the darkness I hear somebody call my name
And when you realize how they tricked you this time
And it's all lies but I'm strung out on the wire
In these streets of fire


Guitar Solo:

e|------------------------------------------------------------|
B|-------------------------------12-12b13~~~------------------|
G|----4--4b5---2--------------2----------------2--------------|
D|-------------2---2-4~~~S----2----------------2---2--4~~~~---|
A|-------------0--------------0----------------0--------------|
E|------------------------------------------------------------|

e|------------------------------------------------------------|
B|------------------------------------------------------------|
G|------------14---(14s)16~~-14----------------------14-------|
D|-------14h16------------------16-(14s)16~~~--14h16----------|
A|------------------------------------------------------------|
E|------------------------------------------------------------|

e|------------------------------------------------------------|
B|------------------------------------17b18r17--14-----14-----|
G|-16p14----------14---16b17r16-14-----------------16---------|
D|-------16p14-16------------------16-------------------------|
A|------------------------------------------------------------|
E|------------------------------------------------------------|

e|------------------------------------------------------------|
B|-17 b 19--17b19--17b19r17~~-------17 b 19--17b19-17b19r17~~-|
G|--(slow)-----------(hold)---16h18---(slow)---------(hold)---|
D|------------------------------------------------------------|
A|------------------------------------------------------------|
E|------------------------------------------------------------|


e|--------------------------------------------------------17--|
B|-17-19-17-17b19r17~~~-17--17b19-17-17-17b19-17b19-17b19-----|
G|-----------(hold)-------------------------------------------|
D|------------------------------------------------------------|
A|------------------------------------------------------------|
E|------------------------------------------------------------|

e|------------------------------------------------------------|
B|------17b19~~~----------------------17b19r17----------------|
G|-------------------4b6r4---16b18r16------------16b18r16-----|
D|------------------------------------------------------------|
A|------------------------------------------------------------|
E|------------------------------------------------------------|

e|------------------------------------------------------------|
B|----------------------------5b7r5~~~------------------------|
G|--4b6r4-2---------4b6r4p2--------------4b6r4-2----------2---|
D|-----------4~~~---------------------------------4~~~----2---|
A|--------------------------------------------------------0---|
E|------------------------------------------------------------|


Verse 3:
I live now only with strangers
I talk to only strangers
I walk with angels that have no place
And don't look me in my face
Don't....???? 
'Cause I'm strung out on the wire
Cross Streets of fire

-----------------------------------------
COMMENTS:

BOSS MAN 5 24/3/2006 - 0:42:59
Yeahhhhhhhhhh man...still love da boss
----------------------------------------- ADD A COMMENT:
NAME: EMAIL: WEBPAGE: ICQ: MSN: COMMENT: