Streets Of Fire

Guitar Solo

This is my rendition of one of the greatest guitar solos of all time. Turn that overdrive up for good raw noise on those A5
chords. It's a bit tricky to make the jump from the second A chord to the 12th-fret bend on the B string straight after,
because you really need that A chord to still be sounding behind the bend. Something worth trying is playing a 12th fret
harmonic on the open A string together with an open E string and leave that ringing as an A5 chord beneath the lead bend. 


e|---------------------------------------------------------------------------------------------------------------------|
B|-------------------------------12-12b13~~~---------------------------------------------------------------------------|
G|----4--4b5---2--------------2----------------2-----------------------14---(14s)16~~-14----------------------14-------|
D|-------------2---2-4~~~S----2----------------2---2--4~~~~-------14h16------------------16-(14s)16~~~--14h16----------|
A|-------------0--------------0----------------0-----------------------------------------------------------------------|
E|---------------------------------------------------------------------------------------------------------------------|

e|---------------------------------------------------------------------------------------------------------------------|
B|------------------------------------17b18r17--14-----14--17 b 19--17b19--17b19r17~~-------17 b 19--17b19--17b19r17~~-|
G|-16p14----------14---16b17r16-14-----------------16------(slow)-----------(hold)---16h18---(slow)---------(hold)-----|
D|-------16p14-16------------------16----------------------------------------------------------------------------------|
A|---------------------------------------------------------------------------------------------------------------------|
E|---------------------------------------------------------------------------------------------------------------------|



e|--------------------------------------------------------17-----------------------------------------------------------|
B|-17-19-17-17b19r17~~~-17--17b19-17-17-17b19-17b19-17b19-------17b19~~~----------------------17b19r17-----------------|
G|-----------(hold)--------------------------------------------------------4b6r4---16b18r16------------16b18r16--------|
D|---------------------------------------------------------------------------------------------------------------------|
A|---------------------------------------------------------------------------------------------------------------------|
E|---------------------------------------------------------------------------------------------------------------------|

e|---------------------------------------------------------------------------------------------------------------------|
B|----------------------------5b7r5~~~---------------------------------------------------------------------------------|
G|--4b6r4-2---------4b6r4p2---------------4b6r4-2----------2-----------------------------------------------------------|
D|-----------4~~~----------------------------------4~~~----2-----------------------------------------------------------|
A|---------------------------------------------------------0-----------------------------------------------------------|
E|---------------------------------------------------------------------------------------------------------------------|
-----------------------------------------
COMMENTS:

BOSS MAN 5 24/3/2006 - 0:42:59
Yeahhhhhhhhhh man...still love da boss
----------------------------------------- ADD A COMMENT:
NAME: EMAIL: WEBPAGE: ICQ: MSN: COMMENT: