I'M ON FIRE From Born In The USA


INTRO:  E  C#m  E  C#m


E                                                                    A
Hey little girl is your Daddy home did he go and leave you all alone
              C#m   A     B         E
I got a bad desire, oh oh oh I'm on fire
                                                                             A
Tell me now baby is he good to you can he do to you the things that I do, oh no
               C#m     A     B         E
I can take you higher, oh oh oh I'm on fire


C#m E C#m E


                    A
Sometimes it's like someone took a knife baby edgy and dull
          E                           C#m
And cut a six inch valley through the middle of my skull
   E
At night I wake up with the sheets soaking wet 
And a freight train running through the middle of my head
         A               C#m     A     B         E
And only you can cool my desire, oh oh oh I'm on fire
A     B         E
Oh oh oh I'm on fire
A     B         E
Oh oh oh I'm on fire


OUTRO:  C#m  E...repeat to fade

-----------------------------------------
CHORD PICKING: Here are two examples of the picking style used throughout.

     E               C#m
   E--------------------------------
   B--------------------5------5----
   G----1------1-------6-6-6--6-6-6-
   D---2-2-2--2-2-2---6---6--6---6--
   A--2---2--2---2---4------4-------
   E-0------0-----------------------

-----------------------------------------
CHORDS:  EADGBE
         ------
E        022100
C#m      X46654
A        X02220
B        X24442
-----------------------------------------
COMMENTS:

KATHY WISBEY www.geocities//.com 21/5/2006 - 14:02:32
great lyrics wish i could only play
----------------------------------------- ADD A COMMENT:
NAME: EMAIL: WEBPAGE: ICQ: MSN: COMMENT: