CHINA GIRL from Let's Dance


INTRO:  G  Am  G  Am


G                            Am
I could escape this feeling, with my China Girl
G                          Am
I feel a wreck without my, little China Girl
Em                        G
I hear her heart beating, loud as thunder
Am                     B
Saw the stars crashing
G                      Am
I'm a mess without my, little China Girl
G                                  Am
Wake up in the morning where's my, little China Girl
Em                          G
I hear her heart's beating, loud as thunder
Am                     B
Saw the stars crashing down

G                        F
I feel a-tragic like I'm Marlon Brando
Em                      D
When I look at my China Girl
G                            F
I could pretend that nothing really meant too much
Em                      D
When I look at my China Girl


BREAK 1:  Em  D  C  B

Em                  D
I stumble into town just like a sacred cow
C
Visions of swastikas in my head
B
Plans for everyone
Em                       D    C  B
It's in the whites of my eyes
Em
My little China Girl
D
You shouldn't mess with me
C                        B
I'll ruin everything you are
Em
I'll give you television
D
I'll give you eyes of blue
C                                B
I'll give you a man who wants to rule the world
G
And when I get excited
F
My little China Girl says
Em                         D
Oh baby just you shut your mouth
             Em  D  C  B
She says ... shhh

SOLO:   Em  D  C  B
        Em  D  C  B


G
And when I get excited
F
My little China Girl says
Em                         D
Oh baby just you shut your mouth
G
And when I get excited
F
My little China Girl says
Em                         D
Oh baby just you shut your mouth


OUTRO SOLO:  Em  D  C  B

INTRO to fade...

-----------------------------------------
INTRO: Repeat 3 times...
     G               Am
 E-7755775-77557755335555-5555-
 A-7755775-77557755335555-5555-
 D-----------------------------
 G-----------------------------
 B-----------------------------
 E-----------------------------

BREAK 1 Rhythm Guitar:
   Em        D         C         B
 E-----------------------------------------
 A-----------------------------------------
 D-----------------------------------------
 G-575757557-454545445-242424224-121212112-
 B-777777777-555555555-333333333-222222222-
 E-----------------------------------------

BREAK 1 Bass Guitar:
   Em              D       C             B
 E------------------------------------------------
 A------------------------------------------------
 D------------------------------------------------
 G-----9-------9--------------5------5------------
 B-7910-77-7910-77-55555554357-33-357-33-22222222-
 E------------------------------------------------

SOLO:
   Em       D                 C                   B
 E------------------------------------------------------------------
 A------------------------------------------------------------------
 D----------------------------7-----7/9-7----------------------7999-
 G------5-757/8P57-5-----5/7/9-7P575-----9875H75--7B57-5----7H9-----
 B--5H7-------------7P5-7-----------------------7-------7P5---------
 E-0---0------------------------------------------------------------
   Em              D             C
 E------------------/10-t10-/t12-15-12----------------------
 A-8--10B11B10-8----/12-t12-----------15-12-----------------
 D--9-----------997------------------------14B16B14P12------
 G----------------------------------------------------14-12-
 B----------------------------------------------------------
 E----------------------------------------------------------
                  B
 E------15--15--17B-15-17-15-----17/19-21B23-23-23-23-21B24-
 A-15/17--17--17------------17P15---------------------------
 D----------------------------------------------------------
 G----------------------------------------------------------
 B----------------------------------------------------------
 E----------------------------------------------------------

-----------------------------------------
CHORDS:  EADGBE
         ------
G        320033
Am       X02210
Em       022000
C        X32010
B        X24442
F        133211
D        XX0232
-----------------------------------------
COMMENTS:

ZIGGY 9/1/2003 - 18:19:36
what the hell is PUNKY talking about?
PUNKY 27/3/2002 - 16:22:08
these may be the corect name of the chords but not the true fingering or form. Just try playing them against the C D. Unless a new web site has been created one still has to sit down with the record to perform the song in a night club and have it sound like the record. If you did make such a web site you would have the eye of every guitar player who prforms live covers .
PATRICK 8/2/2002 - 3:14:32
i'd just like to say that i am shocked and amazed to be the first one to comment on this song.
----------------------------------------- ADD A COMMENT:
NAME: EMAIL: WEBPAGE: ICQ: MSN: COMMENT: