EIGHT LINE POEM from Hunky Dory


INTRO: F  C  F  C  D  E  
       F  C  F  C  F  C  
       E  F  D  G  F


C                      F
Tactful cactus by your window
C                          F
Survey the prairie of your room
C                   D
Mobile spins to its collision
E                               F
Clara puts her head between her paws
C                                F
They've opened shops down on the westside
C                         F
Will all the cacti find a home?
C                  E
But the key to the city
          F                 Dsus4           G    F    C
Is in the sun that pins the branches to the sky  Oh...oh


OUTRO:  F  C  F  C  
        F  C  F  C

-----------------------------------------
INTRO:

          C                F              D E       FC        F C             F
 E--------------------------8---8----5P4---------------------------------
 B---------------------------8---8------5------6P5--------6P56B65--------
 G---------------------577B---7B--B7--------------5--------------5---3/5-
 D----------5H7P5-567-7------------------76767-------8/10---------3P2----
 A-3----35/7-----7---------------------------------87--------------------
 E---3H5-----------------------------------------------------------------

          C                   E           F           D       G  F       C
 E----------15-----------------------------------------17B17-15P13----
 B-13-15-15B--15B15P13-15B15-13-15-15-13-13-15-15-13-15-----------15B-
 G--------------------------------------------------------------------
 D--------------------------------------------------------------------
 A--------------------------------------------------------------------
 E--------------------------------------------------------------------

OUTRO:

   C        F  C               F    C           F  C               F     C
 E-8----6----5-----8--10--12-----13---8---8---------------------------------
 B--8----6-----------------------------8---8---------8-------8-----------9--
 G---97--75--7/9--10--12--12/14---7B--7B--B7P5--77B----5H7B-7B7P5---5757B-
 D----------------------------------------------7-----5H7----------7-7------
 A--------------------------------------------------------------------------
 E--------------------------------------------------------------------------

-----------------------------------------
CHORDS:  EADGBE
         ------
G        320003
C        X32010
D        XX0232
Dsus4    XX0233
F        133211
E        022100

-----------------------------------------
ADD A COMMENT:
NAME: EMAIL: WEBPAGE: ICQ: MSN: COMMENT: