A New Career In A New Town (Needs work/help)

|5---------------|3---------------|1---------------|0-------1-------|----
|---keep hammering----------------|----------------|----------------|3---
|0-2h4--------0-2h4-----------0-2h4----------------|----------------|----
|----------------|----------------|----------------|----------------|----
|----------------|----------------|----------------|----------------|----
|----------------|----------------|----------------|----------------|----

 C repeat                     Am repeat
|--------------------------| |----------------------------|
|--------------------------| |1---------------------------|
|5------5-5-------5--------| |2-------2-2-----------------|
|5------5-5-------5--5--5--| |2-------2-2--------2--2--2--|
|3------3-3-------3--5--6--| |0-------0-0--------0--2--3--|
|--------------------------| |----------------------------|

The notes used are these I think
 F hold chord & use little finger  G 
|8-----8----8----8----------------|7----7---------------7-8-7-8-7-8-|
|10-12---12---12---12-10----10----|8-10---10-8----8--10-------------|
|10----------------------12-------|7-----------10-------------------|
|10-------------------------------|---------------------------------|
|---------------------------------|---------------------------------|
|---------------------------------|---------------------------------|

-----------------------------------------
ADD A COMMENT:
NAME: EMAIL: WEBPAGE: ICQ: MSN: COMMENT: